A Change Of Pace - Every Second Basse tab télécharger gratuitement ou jouer en ligne

Basse tab pour Every Second de A Change Of Pace télécharger gratuitement et lire ou jouer en ligne: fichier .txt, 1.81 kb a 257 vues et 0 téléchargements.

Télécharger basse tab "Every Second" (A Change Of Pace)

A Change Of Pace Nom du groupe
Every Second Nom de la chanson
Basse tabs Type de partition
1.81 kb Taille du fichier
.TXT Type de fichier
257 vues
0 téléchargements
 
Es-tu un robot?

Every Second basse tab lire et jouer en ligne

                    -------------------------------------------------------------------------------
			    Every Second - A Change Of Pace
-------------------------------------------------------------------------------
Tabbed By: Valerie L
e-mail: iloled@yahoo.com
Tuning: Drop D

Intro
G|-------------------------------------------------|   |-------|
D|-------------------------------------------------|   |-------|
A|-------------------------------------333333333333|   |-------|
D|-55555555555-00000000000-22222000000-------------|x2 |--0~---|

Verse
G|------------------------------------------------------------------|
D|------------------------------------------------------------------|
A|---------------------------------------------------333333333333333|
D|5555555555555555-0000000000000000-2222222200000000----------------|

Pre-Chorus "And all these tears and pain.."
G|-------------------------------------------------------|
D|-------------------------------------------------------|
A|--------------------------------3-33-33333-3-3333333-3-|
D|-022222222222222-55555555555555------------------------|

Chorus "I'll remember every second.."
G|-------------------------------------------------|    |-------|
D|-------------------------------------------------|    |-------|
A|-------------------------------------333333333333|    |-------|
D|-55555555555-00000000000-2222000000--------------| x2 |-5~----|

Verse x1
Pre-Chorus x1
Chorus x2 

Bridge "Don't worry.."
G|----------------------------------------------------------|
D|----------------------------------------------------------|
A|-------------3~----------------------------3333333333333--|
E|-5~--0~--2~------5555555-00000000-22220000----------------|

Chorus x3

Outro
G|-----------------|
D|-----------------|
A|-------------3~--|
E|-5~--0~--2~------|                    

Commentaires pour basse tab — Every Second (A Change Of Pace)

Autres partitions pour Every Second de A Change Of Pace:

Dernières vues des partitions de A Change Of Pace: